Navegación

Canciones

Lo + Nuevo

Más...

Bienvenido a Music Instant!

Registrate, opciones unicas para ti esperan, por ejemplo, podras tener tu perfil unico, mensajes privados, chats en foros exclusivas y mas opciones unicas para miembros... ¿Que esperas?


No estás conectado. Conéctate o registrate


[Tablaturas] y Acordes | Juanes - Yerbatero




      • Por favor conectate para responder a este tema!

    Ver el tema anterior Ver el tema siguiente Ir abajo   Mensaje [Página 1 de 1.]

    Afinación
    Fuente
    #1

    offline mrsrz

    avatar
    Fundador (Adm)
    el Dom Jun 22, 2014 1:29 pm
    Yerbatero por Juanes

    Categoria: Guitarra

    Introducción

    Una comunidad en familia

    E--8---5h8p5------------------5------8---8---8---5h8p5-------------------5-----------------
    B------------------8---5h8p5------5----------------------------8---5h8p5-------5----
    G-----------------------------------------------------------------------------------------------
    D-----------------------------------------------------------------------------------------------
    A-----------------------------------------------------------------------------------------------
    E-----------------------------------------------------------------------------------------------

    E---------------0------------------------0-------------------------------------------------------------
    B------1---3-------3---1------1-----------3---1-----1-------------------------------------
    G--2-------------------------2------2---------------2-----2---------------------------------
    D-----------------------------------------------------------------------------------------------
    A-----------------------------------------------------------------------------------------------
    E-----------------------------------------------------------------------------------------------

    E--8---8---8--5h8p5-------------------5------8---8---8---5h8p5-------------------5-----
    B---------------------------8---5h8p5------5----------------------------8---5h8p5-------5----
    G-----------------------------------------------------------------------------------------------
    D-----------------------------------------------------------------------------------------------
    A-----------------------------------------------------------------------------------------------
    E-----------------------------------------------------------------------------------------------

    E--------------------------------------------------------------------------------------------------------
    B------1---3---3h-------1---3---3h--------1---3---3h
    G--2------------------2--------------------2
    D
    A
    E

    Primera Estrofa

    Una comunidad en familia

    Am
    Te traigo el remedio para este mal de amor que lo estremece


                                 Dm
    Y no se merece sufrir si su pareja le dejó


    Am
    Tengo toda clase de brebajes, plantas medicinales


                                       Dm
    Los he traido desde muy lejanos bosques hasta aquí

    Coro

    Una comunidad en familia

                Am
    Soy yerbatero

                                                  G
    Vengo a curar su mal de amores

                                          D7
    Soy yo que quita los dolores

                                    Am
    Y habla con los animales

                                            G
    Digame de que sufre usted

                                        D7
    Que yo la tengo un brebaje  Que le devuelve el tono

    A--7---5---3---2---Am
            y    lo    pone bien

    Am
    Bien, bien, bien, bien, bien bien

    Am
    Si a usted señor lo deja su mujer
    Úntese en el alma pomadita de clavel
    Y para la señora que el marido ha sido infiel

    A--7---5---3---2---Am
    No se preocupe búsquese uno usted también 

    ¡Ojo!

    Se repite el Tab de la intro...

    Segunda Estrofa

    Una comunidad en Familia

    Am
    Sufre de depresión, mal de amor
    Lleva varias noches sin dormir

                                                    Dm
    Y su días no van bien en el trabajo
    Bajo

    Am
    Anda moribundo, preocupado, cabizbajo, desenamorado

                                                               Dm
    Le tengo la solución si le duele el corazón
    No soy doctor

    Coro

    Una comunidad en familia

                Am
    Soy yerbatero

                                                  G
    Vengo a curar su mal de amores

                                          D7
    Soy yo que quita los dolores

                                    Am
    Y habla con los animales

                                            G
    Digame de que sufre usted

                                        D7
    Que yo la tengo un brebaje  Que le devuelve el tono

    A--7---5---3---2---Am
            y    lo    pone bien

    Am
    Bien, bien, bien, bien, bien bien

    Am
    Si a usted señor lo deja su mujer
    Úntese en el alma pomadita de clavel
    Y para la señora que el marido ha sido infiel

    A--7---5---4---3---Bm
    No se preocupe búsquese uno usted también 

    Bm
    Bien, bien, bien, bien, bien bien

    Am
    Si a usted señor lo deja su mujer
    Úntese en el alma pomadita de clavel
    Y para la señora que el marido ha sido infiel

    A--7---5---3---2---Am
    No se preocupe búsquese uno usted también

    Final

    Se repita la Tab del intro



    Última edición por Srz el Dom Feb 01, 2015 3:26 pm, editado 2 veces (Razón : Corrección de Acordes)

    Ver perfil de usuario http://musicinstant.host-es.com
    Afinación
    Fuente
    #2

    offline Cocorin


    Usuario
    el Dom Jun 22, 2014 1:53 pm
    ¡Temazo Carajo!!!  bom 

    Ver perfil de usuario
    Afinación
    Fuente
    #3

    offline Kroos

    avatar
    Master (M)
    el Dom Jun 22, 2014 2:00 pm
    Juanes, nunca pasara de moda, su musica es muy buena, incluso es uno de mis cantantes favoritos o mejor dicho Musico favorito! Very Happy Buen tema, hay que subir mas de este interprete! Wink

    Ver perfil de usuario
    Afinación
    Fuente
    #4

    offline mrsrz

    avatar
    Fundador (Adm)
    el Dom Jun 22, 2014 2:09 pm
    Si es muy talentoso Juanes, claro hay que subir mas cosas de el. Smile Hasta pronto pues! Very Happy

    Ver perfil de usuario http://musicinstant.host-es.com
    Afinación
    Fuente
    #5

    offline Kroos

    avatar
    Master (M)
    el Dom Jun 22, 2014 3:48 pm
    Dale pues! Very Happy

    Ver perfil de usuario

    Ver el tema anterior Ver el tema siguiente Ir abajo  Mensaje [Página 1 de 1.]



    Permisos de este foro:
    No puedes responder a temas en este foro.




     
    • Crear foro | © PunBB | Foro gratis de asistencia | Contactar | Denunciar un abuso | Crear un blog