Navegación

Canciones

Lo + Nuevo

Más...

Bienvenido a Music Instant!

Registrate, opciones unicas para ti esperan, por ejemplo, podras tener tu perfil unico, mensajes privados, chats en foros exclusivas y mas opciones unicas para miembros... ¿Que esperas?


No estás conectado. Conéctate o registrate


[Tablaturas] | Hugo Blanco - Moliendo Café




      • Por favor conectate para responder a este tema!

    Ver el tema anterior Ver el tema siguiente Ir abajo   Mensaje [Página 1 de 1.]

    Afinación
    Fuente
    #1

    offline mrsrz

    avatar
    Fundador (Adm)
    el Mar Abr 15, 2014 10:24 pm
    Moliendo Cafe por Hugo Blanco

    #CuatroVenezolano

    Introducción

    #CuatroVenezolano

    ----------------------------------------------
    ------1------------0-------------------------
    --2-------2---0-------0----------2-------1
    -------------------------------3-------2-----
      x2

    --------------------------------------------------------------------------
    ----------0---1---1---1---1---1---1---1---1------1-----------------
    ------2-------------------------------------------2-------2---0--------
    --2----------------------------------------------------------------3---2

    Cuando la tarde languidese renacen las sombras

    --------------------------------------------------------------------------
    ----------0---1---1---1---1---1---1---1---1------3---2---1---0---
    ------2-------------------------------------------2---------------------
    --2----------------------------------------------------------------------

    En la quietud los cafetales vuelven a sentir

    --------------------------------------------------------------------------
    ----------0---3---3---3---3---3---3---3---5---3---5---3---1------
    ------2------------------------------------------------------------------
    --2----------------------------------------------------------------------

    Aquella triste cancion de amor de la vieja molienda

    ---------------------------------------------------------------------------------
    ----------0---1---1---1---1---0---0---0---0---1---0-----------------------
    ------2-----------------------------------------------------2---2---2---2---2
    --2------------------------------------------------------------------------------

    Que en el letargo de la noche parece decir  x1


    ----------------------------------------------------------
    --3---5---3---5---3---6---0---3---5---3---1--------
    ----------------------------------------------------------
    ----------------------------------------------------------

    Una pena de amor una tristeza

    ----------------------------------------------------------
    --3---5---3---5---3---6---0---3---5---3---1--------
    ----------------------------------------------------------
    ----------------------------------------------------------

    Lleva el zambo Manuel en su amargura

    ---------------------------------------------------------------------
    --0---0---0---0---0---0---0---0---0---0---0---0---3---4---5
    ---------------------------------------------------------------------
    ---------------------------------------------------------------------

    Se la pasa incandesable la noche moliendo cafe x1

    ----------------------------------------------
    ------1------------0------------------------
    --2-------2---0-------0----------2-------1
    -------------------------------3-------2----
    x2

    ---------------------------------------
    --1-----1---0-------0-------1-----0
    -----2-----------0-------2------1---
    ---------------------------------------
    x2



    Última edición por mrsrz el Jue Nov 05, 2015 11:24 pm, editado 10 veces (Razón : Arreglo de Tablaturas)

    Ver perfil de usuario http://musicinstant.host-es.com
    Afinación
    Fuente
    #2

    offline mrsrz

    avatar
    Fundador (Adm)
    el Jue Ene 01, 2015 5:48 pm
    Tema Actualizado

    el 01/01/2015 a las 5:49 p.m. por @Srz

    Ver perfil de usuario http://musicinstant.host-es.com

    Ver el tema anterior Ver el tema siguiente Ir abajo  Mensaje [Página 1 de 1.]



    Permisos de este foro:
    No puedes responder a temas en este foro.




     
    • Crear foro con ForoActivo | © PunBB | Foro gratis de asistencia | Contactar | Denunciar un abuso | Crear un blog