Navegación

Canciones

Lo + Nuevo

Más...

Bienvenido a Music Instant!

Registrate, opciones unicas para ti esperan, por ejemplo, podras tener tu perfil unico, mensajes privados, chats en foros exclusivas y mas opciones unicas para miembros... ¿Que esperas?


No estás conectado. Conéctate o registrate


[Tablaturas] Super Mario Bros | World Theme 1.1




      • Por favor conectate para responder a este tema!

    Ver el tema anterior Ver el tema siguiente Ir abajo   Mensaje [Página 1 de 1.]

    Afinación
    Fuente
    #1

    offline mrsrz

    avatar
    Fundador (Adm)
    el Mar Abr 15, 2014 8:25 pm

    Post Unico: Tablaturas [Guitarra] | Super Mario Bross - Theme


    Nombre de la Cancion: Theme
    Artistas: Super Mario Bross
    Descripcion: Sin descripcion. x_x

    Parte 1
    --0---0---0------0---3----
    ---------------1------------
    ---------------------------0
    ----------------------------
    ----------------------------
    ----------------------------
    Parte 2 "x1"
    -------------------------------------0---3---5---1---3---0-----------
    ---1--------------0--------------------------------------------1--3--0
    ------0-------2------3---2-----0--------------------------------------
    ----------2-------------------------------------------------------------
    -------------------------------------------------------------------------
    -------------------------------------------------------------------------

    Parte 3 "x1"
    -----3---2---1--------0---------------------------3---2---1------0---8---8---8
    -------------------4----------------1-------1---3---------------4-----------------
    ----------------------------1---2-------2------------------------------------------
    -------------------------------------------------------------------------------------
    -3-----------------------------------------------------------------------------------
    --------------------------------------------------------------------------------------
    -----3---2---1--------0------------------------------------
    -------------------4-----------------1-------1---3---2---1
    ----------------------------1---2--------2------------------
    --------------------------------------------------------------
    -3-----------------------------------------------------------
    --------------------------------------------------------------

    Parte 4
    -------------------------0--------------------------------------0
    --1---1---1---1---3-------1-----------1----1---1---1---3---
    ---------------------------------2---0---------------------------
    ------------------------------------------------------------------
    ------------------------------------------------------------------
    ------------------------------------------------------------------
    -------------------------0------------
    --1---1---1---1---3-------1--------
    ---------------------------------2---0
    ---------------------------------------
    ---------------------------------------
    ---------------------------------------
    --0---0---0------0---3---
    ---------------1-----------
    ---------------------------0
    ----------------------------
    ----------------------------
    ----------------------------

    Parte 5 "x1"
    --0-------------------1---1---1------5---5---5---3---1---0------------
    ------1----------------------------0-----------------------------1--------
    ----------0---1---2-------------------------------------------------2---0
    ----------------------------------------------------------------------------
    ----------------------------------------------------------------------------
    ----------------------------------------------------------------------------
    --0-------------------1---1---1------1---1---1---0---------
    ------1----------------------------0---------------------3---1
    ----------0---1---2--------------------------------------------
    -----------------------------------------------------------------
    -----------------------------------------------------------------
    -----------------------------------------------------------------

    Tags / #mario, #bros, #tablaturas, #guitarra, #theme1.1



    Última edición por mrsrz el Dom Mar 13, 2016 6:20 pm, editado 6 veces

    Ver perfil de usuario http://musicinstant.host-es.com
    Afinación
    Fuente
    #2

    offline Compadrito

    avatar
    Usuario
    el Mar Abr 15, 2014 11:55 pm
    Jajajaj Excelente aporte. Wink

    Ver perfil de usuario

    Ver el tema anterior Ver el tema siguiente Ir abajo  Mensaje [Página 1 de 1.]



    Permisos de este foro:
    No puedes responder a temas en este foro.




     
    • Crear foro con ForoActivo | © PunBB | Foro gratis de asistencia | Contactar | Denunciar un abuso | foro gratis