Navegación

Canciones

Lo + Nuevo

Más...

Bienvenido a Music Instant!

Registrate, opciones unicas para ti esperan, por ejemplo, podras tener tu perfil unico, mensajes privados, chats en foros exclusivas y mas opciones unicas para miembros... ¿Que esperas?


No estás conectado. Conéctate o registrate


[Acordes] | Toxicity - System Of A Down




      • Por favor conectate para responder a este tema!

    Ver el tema anterior Ver el tema siguiente Ir abajo   Mensaje [Página 1 de 1.]

    Afinación
    Fuente
    #1

    offline mrsrz

    avatar
    Fundador (Adm)
    el Sáb Ene 18, 2014 10:16 pm
    Toxicity  por System Of A Down

    Categoria: Guitarra

    Introducción

    Una comunidad en familia


    Acordes Utilizados:
    Colocar un Capotraste en el espacio #1
    Acorde de fondo durante el arpegio:
    E |----------------------------------
    B |----------------------------------
    G |----------------------------------
    D |----4----4----4----4----4----4
    A |-2----2----2----2----2----2---
    B |----------------------------------

    Acorde de fondo durante el arpegio:
    E |----------------------------------
    B |----------------------------------
    G |----------------------------------
    D |----7----7----7----7----7----7
    A |-5----5----5----5----5----5---
    B |----------------------------------


    Acorde de fondo durante el arpegio:
    E |-------------------------------------------
    B |-------------------------------------------
    G |-------------------------------------------
    D |----4----4----4----5----5----4--------4-
    A |-2----2----2---------2-----------2-------
    B |--------------------------------------------



    Acorde de fondo durante el arpegio:
    E |-------------------------------------------
    B |-------------------------------------------
    G |-------------------------------------------
    D |----7----8----8----7---------7-----4----4
    A |-5----5----5-------------5-------------5----
    B |--------------------------------------------


    Primera Estrofa

    Una comunidad en familia


       
    Conversion, software version 7.0,


    Looking at life through the eyes of a tire hub,

              
    Eating seeds as a past time activity,

             
    The ____toxici____ty of our city, of our city,

    Coro

    Una comunidad en familia


    New, what do you own the world?

                            
    How do you own disorder, disorder,

         
    Now, somewhere between the sacred silence,

                
    Sacred silence and sleep,

                                    
    Somewhere, between the sacred silence and sleep,

               
    Disorder, disorder, diso____order.

    Nota: Asi sigue siempre hasta que llegamos a la parte del "Solo" no es un solo jaja, pero asi lo identifico yo.

    Acorde de fondo durante el arpegio:    Bis (x4)
    E |------------------------------------------------------
    B |------------------------------------------------------
    G |------------------------------------------------------
    D |------------------------------------------------------
    A |------------------------------------------------------
    B |-8----8----8----8----8----8----11----8----8----10

    Coro

    Una comunidad en familia


    New, what do you own the world?

                             
    How do you own disorder, disorder,

         
    Now, somewhere between the sacred silence,

               
    Sacred silence and sleep,

                                   
    Somewhere, between the sacred silence and sleep,

               
    Disorder, disorder, diso____order.

    Final

    Una comunidad en familia

    Acorde de fondo durante el arpegio: Bis (x4)

    E |---------------------------------
    B |---------------------------------
    G |---------------------------------
    D |---------------------------------
    A |---------------------------------
    B |-8----8----8----8----8----8 Bis (x3)


             
    When I became the sun,

                    
    I shone_______life into the man's hearts,

              
    When______I became the sun,

         
    I shone____life into the man's___hearts.

    ¡Agradecer no cuesta nada!!

    ¡Hola! Amigo/a, Ayúdanos a compartir este tema con tus amigos, nos ayudarías mucho, gracias de antemano!



    Última edición por mrsrz el Vie Nov 27, 2015 2:34 pm, editado 12 veces (Razón : Correción de Acordes)

    Ver perfil de usuario http://musicinstant.host-es.com
    Afinación
    Fuente
    #2

    offline Kroos

    avatar
    Master (M)
    el Dom Ene 19, 2014 10:55 pm
    Siiiiiiiiiiiiiiiiiiiiiiiiiiiiiiiiiiiiiiiiiiiiiiiiiiiiiiiiiiiiiii♥ Gracias hermano, estas tablaturas se entienden mas que las de otras paginas, en serio, Esto esta brutal. Smile

    Ver perfil de usuario
    Afinación
    Fuente
    #3

    offline Compadrito

    avatar
    Usuario
    el Vie Abr 11, 2014 2:17 pm
    Buena rola, mas tarde me la aprendo, por lo menos se que de aca no se borrara. JAJAJA.

    Ver perfil de usuario
    Afinación
    Fuente
    #4

    offline Kurt Cobain

    avatar
    Iniciado + 20
    el Lun Abr 14, 2014 12:21 pm
    Temazo!! Aborresco esa banda, pero esa cancion es muy buena.

    Ver perfil de usuario
    Afinación
    Fuente
    #5

    offline Kroos

    avatar
    Master (M)
    el Lun Abr 14, 2014 12:49 pm
    Jajaja, S.O.A.D Es buena, pero tal vez sea mucha musica para ti. :3

    Ver perfil de usuario

    Ver el tema anterior Ver el tema siguiente Ir abajo  Mensaje [Página 1 de 1.]



    Permisos de este foro:
    No puedes responder a temas en este foro.




     
    • Crea tu foro | © PunBB | Foro gratis de asistencia | Contactar | Denunciar un abuso | foro gratis