Navegación

Canciones

Lo + Nuevo

Más...

Bienvenido a Music Instant!

Registrate, opciones unicas para ti esperan, por ejemplo, podras tener tu perfil unico, mensajes privados, chats en foros exclusivas y mas opciones unicas para miembros... ¿Que esperas?


No estás conectado. Conéctate o registrate


[Acordes] y Tablaturas | Metallica - Nothing Else Matters




      • Por favor conectate para responder a este tema!

    Ver el tema anterior Ver el tema siguiente Ir abajo   Mensaje [Página 1 de 1.]

    Afinación
    Fuente
    #1

    offline mrsrz

    avatar
    Fundador (Adm)
    el Miér Mayo 20, 2015 2:05 am
    Nothing Else Matters por Metallica

    Categoria: #CuatroVenezolano

    Introducción

    Una comunidad en familia


                                                                                                    
    A-------------------------------------------------------------------------------------------------------
    D-------------------------------------------------------------------------0-----2-----4-----2-------
    F#-----5-----5-----5------------5-----6-----5-----3-----5-----3-----------------------------------
    B-------------------------5----------------------------------------------------------------------------

                                                                                 
    A-----0-----2-----3-----------3------------------3------------------0------------------2--------
    D-------------------------2------------------2------------------0------------------0-----2--------
    F#--------------------------------------1------------------0------------------0------------1--------
    B--------------------------------------------------------------------------------------------0-------


    , ,     
    , ,  
    , , , , ,

    Primera Estrofa

    Music Instant una comunidad en familia

                       
    So close no matter how far

                           
    couldn't be much more from the heart

              
    forever trusting who we are

                
              and nothing else matters


                      
           never opened myself this way

                     
           life is ours, we live it our way

                       
    all these words I don't just say

              
               and nothing else matters


                    
            trust I seek and I find in you

                    
         every day for us something new

                    
           open mind for a different view

                         
              and nothing else matters

    Coro

    Music Instant una comunidad en familia

                                 
          never cared for what they do

                                  
          never cared for what they know

           
    but I know

    II Estrofa

    Music Instant una comunidad en familia

                     
    So close no matter how far

                          
    couldn't be much more from the heart

             
    forever trusting who we are

              
              and nothing else matters

    Coro

    Music Instant una comunidad en familia

                                 
          never cared for what they do

                                  
          never cared for what they know

           
    but I know

    Primer Solo

    Music Instant una comunidad en familia

            
    A----------------------------------------------------------------
    D-----2------------4------------5-------------7---------------
    F#----------------------------------------------------------------
    B------------0------------0------------0-------------0--------
    .
             
    A-------------------7-------------------7-----7--------------------------7-----------
    D------------7-------------------7-------------------7------------7------------------
    F#-----6-------------------6---------------------------------6-------------------------
    B----------------------------------------------------------------------------------------
    .
                                            
    A------------3-------------------3------------5-------------------5----
    D-------------------5---------------------------------7------------------
    F#-------------------------------------------------------------------------
    B-----5-------------------5------------7-------------------7-----------
    .
            
    A-----2-----2---------------------------------------
    D-------------------------2--------------------------
    F#-----5-----5-----5---------------------------------
    B-----------------------------------------------------
    .
             
    A----------------------------------------------------------------
    D-----2------------4------------5-------------7---------------
    F#----------------------------------------------------------------
    B------------0------------0------------0-------------0--------
    .
            
    A-------------------7-------------------7-----7--------------------------7-----------
    D------------7-------------------7-------------------7------------7------------------
    F#-----6-------------------6---------------------------------6-------------------------
    B----------------------------------------------------------------------------------------
    .
                                            
    A------------3-------------------3------------------------------------------
    D-------------------5-------------------5-----5/7-----5-----5-----7~---
    F#----------------------------------------------------------------------------
    B-----5-------------------5-------------------------------------------------
    .
            
    A------------------------------------------------7-----5-----7------------7---
    D-----5------------2~-------------------5-------------------------5----------
    F#------------5--------------8-----8--------------------------------------------
    B--------------------------------------------------------------------------------

    Tercera Estrofa

    Music Instant una comunidad en familia

                     
           never opened myself this way

                     
           life is ours, we live it our way

                       
    all these words I don't just say

              
               and nothing else matters



                    
            trust I seek and I find in you

                    
         every day for us something new

                    
           open mind for a different view

                         
              and nothing else matters

    Coro

    Music Instant una comunidad en familia

                                  
           never cared for what they say

                                     
          never cared for games they play

                                  
          never cared for what they do

                                  
          never cared for what they know

               
    and I know

    Segundo Solo

    Music Instant una comunidad en familia

                                                              
    A--------------------------------------------------------7------------5-----7---------
    D-----7~-----7~-----5-----5-----4-----5-----4------------4----------------------
    F#---------------------------------------------------------------------------------------
    B---------------------------------------------------------------------------------------
    .
                                                                                                                   
    A-----------------------------------------------------------------------------------------------------------------------------------------
    D-----5-----7-----5------------------------------------------------------9-----8-----9-----8~-----7-----7-----7-----6-----5~---
    F#-------------------------5-----5------------5-----5-----10-----8-------------------------------------------------------------------
    B---------------------------------------5------------------------------------------------------------------------------------------------
    .
                                                                      
    A----------------------------------------------------------------------------------------------
    D----------------------------------------------------------------------------------------------
    F#----------------------------------------------------------------------------------------------
    B-----8-----7-----0-----8-----7-----10-----8-----7b8-----0-----8-----7-----0-------
    .
                                                                             
    A---------------------------------------------------------------------------------------------------
    D-----5------------5------------------------------------------------------------------------------
    F#------------3------------3b5-----3------------5-----8-----5-----8-----8-----9-----10----
    B-------------------------------------------5------------------------------------------------------


    Cuarta Estrofa

    Music Instant una comunidad en familia

                     
    So close no matter how far

                          
    couldn't be much more from the heart

             
    forever trusting who we are

              
              and nothing else matters



    Última edición por mrsrz el Jue Nov 05, 2015 11:13 pm, editado 1 vez

    Ver perfil de usuario http://musicinstant.host-es.com
    Afinación
    Fuente
    #2

    offline Kroos

    avatar
    Master (M)
    el Vie Mayo 22, 2015 12:46 am
    Lo maximo brother, esto esta de pinga! xD Ese solo esta igualito... "Se parece igualito" xD
    Bien, sigue asi, me gustaria mas aportes de Metallica tenlos en cuenta! Wink 

    Ver perfil de usuario
    Afinación
    Fuente
    #3

    offline AndraATorres

    avatar
    Miembro Especial + 40
    el Lun Mayo 25, 2015 1:13 am
    Excelente aporte, @mrsrz, ahora una critica constructiva.
    Falto la ultima parte del segundo solo, es un mini riff algo asi.

    Ver perfil de usuario
    Afinación
    Fuente
    #4

    offline Kurt Cobain

    avatar
    Iniciado + 20
    el Lun Mayo 25, 2015 1:21 am
    @mrsrz ya te corrigen wn, que bolas. Jaja!!

    Ver perfil de usuario
    Afinación
    Fuente
    #5

    offline AndraATorres

    avatar
    Miembro Especial + 40
    el Lun Mayo 25, 2015 1:24 am
    Siempre corrijo cosas que no esten completadas, es mas una critica constructiva, asi se ayuda a la gente, tienes en cuenta eso, no?

    Ver perfil de usuario
    Afinación
    Fuente
    #6

    offline Kurt Cobain

    avatar
    Iniciado + 20
    el Lun Mayo 25, 2015 1:28 am
    Pues, si tienes razon vale, tenia tiempo sin entrar...

    Ver perfil de usuario
    Afinación
    Fuente
    #7

    offline mrsrz

    avatar
    Fundador (Adm)
    el Lun Mayo 25, 2015 1:36 am
    @AndraATorres escribió:Excelente aporte, @mrsrz, ahora una critica constructiva.
    Falto la ultima parte del segundo solo, es un mini riff algo asi.

    Si, se me fue de volón, estuve 3 horas redactando la cancion y no veia la hora de terminar.

    Ver perfil de usuario http://musicinstant.host-es.com

    Ver el tema anterior Ver el tema siguiente Ir abajo  Mensaje [Página 1 de 1.]



    Permisos de este foro:
    No puedes responder a temas en este foro.




     
    • Crear foro | © PunBB | Foro gratis de asistencia | Contactar | Denunciar un abuso | Crear un blog