Navegación

Canciones

Lo + Nuevo

Más...

Bienvenido a Music Instant!

Registrate, opciones unicas para ti esperan, por ejemplo, podras tener tu perfil unico, mensajes privados, chats en foros exclusivas y mas opciones unicas para miembros... ¿Que esperas?


No estás conectado. Conéctate o registrate


[Acordes] y Tablaturas | Lynyrd Skynyrd - Free Bird




      • Por favor conectate para responder a este tema!

    Ver el tema anterior Ver el tema siguiente Ir abajo   Mensaje [Página 1 de 1.]

    Afinación
    Fuente
    #1

    offline mrsrz

    avatar
    Fundador (Adm)
    el Dom Mayo 03, 2015 3:42 pm
    Free Bird por Lynyrd Skynyrd

    Categoria: #Cuatro Venezolano

    Introducción

    Music Instant una comunidad en familia

     
    x2
                        
    A------------------------------
    D---5-----4-----5-----4-----
    F#------------------------------
    B------------------------------
             
                                                          
    A-------------------------5-------------------5------------------
    D---5------5------4-----------2------2-----------4-------2---
    F#-----------------------------------------------------------------
    B-----------------------------------------------------------------
             
                                                            
    A----------5-----2-----3-------------------------3------------
    D---2-------------------------3-----3-----3-------------5----
    F#----------------------------------------------------------------
    B----------------------------------------------------------------
                     
                                                 
    A--------------------------------------------------------------
    D---5-----7--------------------------------7-----------------
    F#-----------------6-----8-----|-----8------------6-----8----
    B--------------------------------------------------------------

                           
    A------------------------------
    D---5-----4-----5-----4-----
    F#------------------------------
    B------------------------------
           
                                         
    A------------------------------5----
    D---5-----5------5-----4----------
    F#------------------------------------
    B------------------------------------
           
                                                            
    A----------5-----2-----3-----3-------------------------3------------
    D---2--------------------------------3-----3-----3-------------5----
    F#-----------------------------------------------------------------------
    B-----------------------------------------------------------------------
                     
                                                 
    A--------------------------------------------------------------
    D---5-----7--------------------------------7-----------------
    F#-----------------6-----8-----|-----8------------6-----8----
    B--------------------------------------------------------------

    Primera Estrofa

    Music Instant una comunidad en familia

             
                   If I leave here tomorrow

                       
            Would you still remember me

             
        For I must be travelin' on now

                             
     There's too many places I got to see


                   
                      f I stay here with you girl

               
    Things just couldn't be the same


              
    'Cause I'm as free as a bird now

                    
        And this bird you cannot change
    Oh oh oh oh oh oh

    Coro

    Music Instant una comunidad en familia

                      
    Oh And the bird you cannot change

                    
       And this bird you cannot change

                    
               Lord knows, I can't change

    Introducción

    Music Instant una comunidad en familia

                   
    A------------------------------
    D---5-----4-----5-----4-----
    F#------------------------------
    B------------------------------
           
                                                           
    A-------------------------5-------------------5------------------
    D---5------5------4-----------2------2-----------4-------2---
    F#-----------------------------------------------------------------
    B-----------------------------------------------------------------
           
                                                           
    A----------5-----2-----3-------------------------3------------
    D---2-------------------------3-----3-----3-------------5----
    F#----------------------------------------------------------------
    B----------------------------------------------------------------
                     
                                                 
    A--------------------------------------------------------------
    D---5-----7--------------------------------7-----------------
    F#-----------------6-----8-----|-----8------------6-----8----
    B--------------------------------------------------------------

                         
    A------------------------------
    D---5-----4-----5-----4-----
    F#------------------------------
    B------------------------------
           
                                         
    A------------------------------5----
    D---5-----5------5-----4----------
    F#------------------------------------
    B------------------------------------
           
                                                             
    A----------5-----2-----3-----3-------------------------3------------
    D---2--------------------------------3-----3-----3-------------5----
    F#-----------------------------------------------------------------------
    B-----------------------------------------------------------------------
                   
                                                 
    A--------------------------------------------------------------
    D---5-----7--------------------------------7-----------------
    F#-----------------6-----8-----|-----8------------6-----8----
    B--------------------------------------------------------------

    Segunda Estrofa

    Music Instant una comunidad en familia

                                                
              Bye and bye baby, it's been sweet love, yeah yeah

                   
    Though this feelin' I can't change

           
    Please don't take it so badly

                   
    'Cause Lord knows, I'm to blame

                  
               And if I stay here with you girl

                       
    Things just couldn't even be the same

              
    'Cause I'm as free as a bird now

                       
            And this bird you cannot change
    Oh oh oh oh oh oh

    Coro

    Music Instant una comunidad en familia

                     
    Oh And the bird you cannot change

                   
      And this bird you cannot change

                   
              Lord knows, I can't change

                   
              
    Lord help me, I can't change

     
    Solo

    Pronta su redacción


        

                  Lord I can't change

                     

       Won't you fly            high          free bird yeah.

    Solo

    El circulo armonico termina con estos tres acordes




    Última edición por mrsrz el Jue Nov 05, 2015 11:11 pm, editado 2 veces

    Ver perfil de usuario http://musicinstant.host-es.com
    Afinación
    Fuente
    #2

    offline Kroos

    avatar
    Master (M)
    el Dom Mayo 03, 2015 4:12 pm
    Que gran aporte! Faltaria el solo, xD Ese lo sacas, no? Creo que si...

    Ver perfil de usuario
    Afinación
    Fuente
    #3

    offline AndraATorres

    avatar
    Miembro Especial + 40
    el Dom Mayo 03, 2015 4:14 pm
    A lo mejor deba escucharla, a ver si es un clasico del Rock como asi dicen! Smile

    Ver perfil de usuario
    Afinación
    Fuente
    #4

    offline Kurt Cobain

    avatar
    Iniciado + 20
    el Dom Mayo 03, 2015 4:44 pm
    Joda, subela en Guitarra! :'(

    Ver perfil de usuario
    Afinación
    Fuente
    #5

    offline Kroos

    avatar
    Master (M)
    el Lun Mayo 04, 2015 12:16 am
    @Kurt Cobain escribió:Joda, subela en Guitarra! :'(

    Verdad!! Sad

    Ver perfil de usuario
    Afinación
    Fuente
    #6

    offline Kurt Cobain

    avatar
    Iniciado + 20
    el Lun Mayo 25, 2015 1:30 am
    @Kroos sabe...

    Ver perfil de usuario
    Afinación
    Fuente
    #7

    offline mrsrz

    avatar
    Fundador (Adm)
    el Lun Mayo 25, 2015 1:34 am
    @Kroos escribió:Que gran aporte! Faltaria el solo, xD Ese lo sacas, no? Creo que si...
     Si no hay problema, es sumamente sencillo!

    Ver perfil de usuario http://musicinstant.host-es.com
    Afinación
    Fuente
    #8

    offline Kurt Cobain

    avatar
    Iniciado + 20
    el Lun Mayo 25, 2015 1:44 am
    Ese solo es demasiado facil, joder, yo ya lo habia sacado el dia que posteaste la cancion.

    Ver perfil de usuario
    Afinación
    Fuente
    #9

    offline mrsrz

    avatar
    Fundador (Adm)
    el Lun Mayo 25, 2015 1:45 am
    Bueno, si puedes me mandas un Mp y yo observo a ver si es similar el solo, ahi vemos si lo anexamos al tema.

    Ver perfil de usuario http://musicinstant.host-es.com
    Afinación
    Fuente
    #10

    offline Contenido patrocinado


    Ver el tema anterior Ver el tema siguiente Ir abajo  Mensaje [Página 1 de 1.]



    Permisos de este foro:
    No puedes responder a temas en este foro.




     
    • Crear un foro gratis | © PunBB | Foro gratis de asistencia | Contactar | Denunciar un abuso | Crear un blog