Navegación

Canciones

Lo + Nuevo

Más...

Bienvenido a Music Instant!

Registrate, opciones unicas para ti esperan, por ejemplo, podras tener tu perfil unico, mensajes privados, chats en foros exclusivas y mas opciones unicas para miembros... ¿Que esperas?


No estás conectado. Conéctate o registrate


[Tablaturas] Super Mario Bros | World Theme 1.1




      • Por favor conectate para responder a este tema!

    Ver el tema anterior Ver el tema siguiente Ir abajo   Mensaje [Página 1 de 1.]

    Afinación
    Fuente
    #1

    offline mrsrz

    avatar
    Fundador (Adm)
    el Dom Dic 14, 2014 2:15 pm
    Super Mario Bross World 1.1 por Srz

    Categoria: #CuatroVenezolano

    ¡Importante Leer!

    Dividiremos la pieza en cuatro partes, y explicaremos una por una con un audio!

    Parte 1


    B-------------------------------------------------------------------------------------------------------------------------------------------------
    F#---10---10---10---------10---13---1-------------------------------------------------------------------------------------------------------
    D----------------------10------------------------------------------------------------------------------------------------------------------------
    A-------------------------------------------------------------------------------------------------------------------------------------------------

    Bis x1
    B--------------------------------------------------------------------1---3---0------------------------------------------------------------------
    F#---6-----------3---5---4---3---1-------1---3--------1--------------------------------------------------------------------------------------
    D-------5---2-------------------------2------------2---------2---------------------------------------------------------------------------------
    A-------------------------------------------------------------------------------------------------------------------------------------------------


    Parte 2


    Bis x1
    B
    ----------------------------------------------------------------------------------------------------------------------------------------------------------------------------------------------
    F#
    ------------------------------------------------------------------------------6---6---6---6-------------------------------------------------------------------------------------------------
    D
    ---5---4---3--------2--------------------------2---5---4---3--------2----------------------5---4---3--------2--------------------------2---------------------------------------------
    A
    -----------------5--------0---3---5---3---5---------------------5-----------------------------------------5--------0---3---5---3---5--------6---6---5---5---3---3---3---3---3---


    Parte 3


    B
    --------------------------------------------------------------------------------------------------------------------------------------------------------
    F#
    ---6---6---6---6---8---10---6------------6---6---6---6---8---10---6---6---6---6---8---10------6------------------------------------------
    D
    -------------------------------------7---5-------------------------------------------------------------7-------5-------------------------------------
    A
    --------------------------------------------------------------------------------------------------------------------------------------------------------


    B
    --------------------------------------------------------------------------------------------------------------------------------------------------
    F#
    ---10---10---10----------10---13---1-------------------------------------------------------------------------------------------------------
    D
    ----------------------10-------------------------------------------------------------------------------------------------------------------------
    A
    --------------------------------------------------------------------------------------------------------------------------------------------------


    Parte 4


    Bis x1
    B
    -------------------------------------------------------------------------------------------------------13---10---8---------------------------------------------------------------------------------------------
    F#
    ---10----------------------------11---11---11---------16---16---16---13---11---10--------------------10------------------------11---11---11---------11--11--11---10---8---6---
    D
    ---------10----------------------------------------------------------------------------------------------------------------10-----------------------------------------------------------------------------------
    A
    ---------------10---11---12----------------------12----------------------------------------------------------------------10---11---12-----------------------12--------------------------------------



    Última edición por mrsrz el Dom Mar 13, 2016 6:09 pm, editado 3 veces

    Ver perfil de usuario http://musicinstant.host-es.com
    Afinación
    Fuente
    #2

    offline Kurt Cobain

    avatar
    Iniciado + 20
    el Dom Dic 14, 2014 4:43 pm
    Jjajaja,Mrc que clase, jaja faltaría con el tiempo subir todas las partes! Very Happy Yo te ayudo wn, te mando por MP algunas partes del mundo 1.2 Smile #CuatroVenezolano

    Ver perfil de usuario
    Afinación
    Fuente
    #3

    offline mrsrz

    avatar
    Fundador (Adm)
    el Dom Dic 14, 2014 5:24 pm
    JAJAJA! Si, por su puesto. Smile Gracias por comentar tu opinion! Wink

    Ver perfil de usuario http://musicinstant.host-es.com

    Ver el tema anterior Ver el tema siguiente Ir abajo  Mensaje [Página 1 de 1.]



    Permisos de este foro:
    No puedes responder a temas en este foro.




     
    • Crear foro | © PunBB | Foro gratis de asistencia | Contactar | Denunciar un abuso | foro gratis