Navegación

Canciones

Lo + Nuevo

Más...

Bienvenido a Music Instant!

Registrate, opciones unicas para ti esperan, por ejemplo, podras tener tu perfil unico, mensajes privados, chats en foros exclusivas y mas opciones unicas para miembros... ¿Que esperas?


No estás conectado. Conéctate o registrate


[Tablaturas] | Sugar - System Of A Down




      • Por favor conectate para responder a este tema!

    Ver el tema anterior Ver el tema siguiente Ir abajo   Mensaje [Página 1 de 1.]

    Afinación
    Fuente
    #1

    offline mrsrz

    avatar
    Fundador (Adm)
    el Jue Sep 04, 2014 3:38 am
    Sugar por System Of A Down

    Una comunidad en familia

    Aviso Importante

    Para ejecutar esta canción, "Que fue pedida por varios colegas" la nota "(A) La primera cuerda" Debemos subirla a (C)" ¿Como se que esta bien? Pisa el segundo traste de la primera cuerda, y el sonido debe ser igual al de la segunda cuerda"  

    Introducción

    Una comunidad en familia

    Se repite 16 Veces, esto va mientras el cantante canta al comenzar.

    B----------------------------
    F#----------------------------
    D----------------------------
    C---0---7---6---5---------

    Primera Estrofa #Tablatura

    Una comunidad en familia

    B---------------------------------------------
    F#-------9---9---8--------------------------
    D--------------------8-------10/1---10/1-
    C---7--------------------7------------------
    .
    B----------------------------------------------
    F#-------9---9---8---------------------------
    D--------------------8-------10/1---10/1--
    C---7--------------------7-------------------
    .
    B----------------------------------------------
    F#-------9---9---8---------------------------
    D--------------------8-------10/1---10/1--
    C---7--------------------7-------------------
    .
    Acá, como ya sabemos, el sonido es continuo, y supongo que como no todos tienens un Cuatro Eléctrico para hacer ese sonido, deberíamos esforzarnos para conseguirlo. Solo deben agitar las notas cuando las toques, así el sonido puede ser un 2% mas duradero.

    B------------------------------------------------------------------------------------------------------------------
    F#--------------9---9~~---9---8---8----------------------------------------------------------------------------
    D-----------------------------------------8~~---------10~~-------10~~---------10~~---------10~~------
    C---7---7---------------------------------------7~~--------7~~----------7~~----------7~~----------7~~-

    Coro

    Una comunidad en familia

    B----------------------------
    F#----------------------------
    D----------------------------
    C---0---7---6---5---------

    ¡Nota!

    Se repite lo mismo, ya que es la misma secuencia

    Final

    Comunidad en Familia

    x4
    B---------------------------
    F#---------------------------
    D---------------------------
    C---1------1---0----------
    .
    x12

    B----------------------------------------
    F----------------------------------------
    D----------------------------------------
    C----1------0-0-1-0-1---0-0-1-0-1
    .
    B----------------------------
    F#----------------------------
    D----------------------------
    C---0---7---6---5---------



    Última edición por mrsrz el Vie Nov 27, 2015 2:39 pm, editado 3 veces

    Ver perfil de usuario http://musicinstant.host-es.com
    Afinación
    Fuente
    #2

    offline Kroos

    avatar
    Master (M)
    el Mar Sep 09, 2014 8:30 pm
    xDDDDD ¿Sugar? Jorge, estas loco o no sabes que subir. Pero por mas que me sorprenda decirlo esta buena la Canción. 
    tu sabes como me gusta S.O.A.D Gracias por subirla. 

    Ver perfil de usuario
    Afinación
    Fuente
    #3

    offline mrsrz

    avatar
    Fundador (Adm)
    el Sáb Sep 13, 2014 2:04 am
    Jajaja ,cada canción tiene lo suyo! Smile  A peticion de un colega fue pan comido!

    Ver perfil de usuario http://musicinstant.host-es.com

    Ver el tema anterior Ver el tema siguiente Ir abajo  Mensaje [Página 1 de 1.]



    Permisos de este foro:
    No puedes responder a temas en este foro.




     
    • Crea tu foro | © PunBB | Foro gratis de asistencia | Contactar | Denunciar un abuso | foro gratis